ISO-10303-21;
HEADER;
/* Generated by software containing ST-Developer
 * from STEP Tools, Inc. (www.steptools.com) 
 */

FILE_DESCRIPTION(
/* description */ ('MH130-1A MOUNTING PAD'),
/* implementation_level */ '2;1');

FILE_NAME(
/* name */ 
'\\\\server11c\\tDrive\\Marketing\\CTC\\WEB_READY\\STEP_FILES\\MOUNTIN
G_HARDWARE\\MH130-1T.stp',
/* time_stamp */ '2020-08-03T11:23:23-04:00',
/* author */ ('lcup'),
/* organization */ (''),
/* preprocessor_version */ 'ST-DEVELOPER v18',
/* originating_system */ 'Autodesk Inventor 2020',
/* authorisation */ '');

FILE_SCHEMA (('AUTOMOTIVE_DESIGN { 1 0 10303 214 3 1 1 }'));
ENDSEC;

DATA;
#10=MECHANICAL_DESIGN_GEOMETRIC_PRESENTATION_REPRESENTATION('',(#13),#388);
#11=SHAPE_REPRESENTATION_RELATIONSHIP('SRR','None',#398,#12);
#12=ADVANCED_BREP_SHAPE_REPRESENTATION('',(#14),#387);
#13=STYLED_ITEM('',(#407),#14);
#14=MANIFOLD_SOLID_BREP('Solid2',#193);
#15=TOROIDAL_SURFACE('',#237,0.47,0.03);
#16=FACE_BOUND('',#58,.T.);
#17=FACE_BOUND('',#62,.T.);
#18=CONICAL_SURFACE('',#223,0.05275,1.02974425867665);
#19=CONICAL_SURFACE('',#229,0.485,0.785398163397448);
#20=B_SPLINE_CURVE_WITH_KNOTS('',3,(#316,#317,#318,#319,#320,#321,#322,
#323,#324,#325,#326,#327),.UNSPECIFIED.,.F.,.F.,(4,2,2,2,2,4),(-0.12023494171065,
-0.118375305932419,-0.0890555797476862,-0.0592640375151961,-0.0295163264643193,
0.),.UNSPECIFIED.);
#21=B_SPLINE_CURVE_WITH_KNOTS('',3,(#331,#332,#333,#334,#335,#336,#337,
#338,#339,#340,#341,#342),.UNSPECIFIED.,.F.,.F.,(4,2,2,2,2,4),(-0.241390924565733,
-0.224093646053763,-0.206786445125371,-0.177049807226111,-0.14783899032351,
-0.121248684374008),.UNSPECIFIED.);
#22=LINE('',#314,#29);
#23=LINE('',#343,#30);
#24=LINE('',#348,#31);
#25=LINE('',#358,#32);
#26=LINE('',#365,#33);
#27=LINE('',#370,#34);
#28=LINE('',#379,#35);
#29=VECTOR('',#251,0.393700787401575);
#30=VECTOR('',#254,0.393700787401575);
#31=VECTOR('',#259,0.5);
#32=VECTOR('',#270,0.05275);
#33=VECTOR('',#279,0.1055);
#34=VECTOR('',#284,0.485);
#35=VECTOR('',#295,0.5);
#36=CYLINDRICAL_SURFACE('',#216,0.135);
#37=CYLINDRICAL_SURFACE('',#218,0.5);
#38=CYLINDRICAL_SURFACE('',#226,0.1055);
#39=CYLINDRICAL_SURFACE('',#235,0.5);
#40=FACE_OUTER_BOUND('',#51,.T.);
#41=FACE_OUTER_BOUND('',#52,.T.);
#42=FACE_OUTER_BOUND('',#53,.T.);
#43=FACE_OUTER_BOUND('',#54,.T.);
#44=FACE_OUTER_BOUND('',#55,.T.);
#45=FACE_OUTER_BOUND('',#56,.T.);
#46=FACE_OUTER_BOUND('',#57,.T.);
#47=FACE_OUTER_BOUND('',#59,.T.);
#48=FACE_OUTER_BOUND('',#60,.T.);
#49=FACE_OUTER_BOUND('',#61,.T.);
#50=FACE_OUTER_BOUND('',#63,.T.);
#51=EDGE_LOOP('',(#126,#127));
#52=EDGE_LOOP('',(#128,#129,#130,#131,#132,#133));
#53=EDGE_LOOP('',(#134,#135,#136,#137,#138,#139,#140,#141,#142));
#54=EDGE_LOOP('',(#143,#144,#145,#146));
#55=EDGE_LOOP('',(#147,#148,#149,#150,#151,#152));
#56=EDGE_LOOP('',(#153,#154,#155,#156,#157,#158));
#57=EDGE_LOOP('',(#159,#160));
#58=EDGE_LOOP('',(#161,#162));
#59=EDGE_LOOP('',(#163,#164,#165,#166,#167));
#60=EDGE_LOOP('',(#168,#169,#170,#171,#172));
#61=EDGE_LOOP('',(#173,#174));
#62=EDGE_LOOP('',(#175,#176));
#63=EDGE_LOOP('',(#177));
#64=CIRCLE('',#214,0.5);
#65=CIRCLE('',#215,0.135);
#66=CIRCLE('',#217,0.135);
#67=CIRCLE('',#219,0.5);
#68=CIRCLE('',#220,0.5);
#69=CIRCLE('',#221,0.5);
#70=CIRCLE('',#222,0.5);
#71=CIRCLE('',#224,0.1055);
#72=CIRCLE('',#225,0.1055);
#73=CIRCLE('',#227,0.1055);
#74=CIRCLE('',#228,0.1055);
#75=CIRCLE('',#230,0.47);
#76=CIRCLE('',#231,0.47);
#77=CIRCLE('',#233,0.5);
#78=CIRCLE('',#234,0.5);
#79=CIRCLE('',#236,0.5);
#80=CIRCLE('',#238,0.47);
#81=VERTEX_POINT('',#308);
#82=VERTEX_POINT('',#309);
#83=VERTEX_POINT('',#313);
#84=VERTEX_POINT('',#315);
#85=VERTEX_POINT('',#328);
#86=VERTEX_POINT('',#330);
#87=VERTEX_POINT('',#345);
#88=VERTEX_POINT('',#347);
#89=VERTEX_POINT('',#349);
#90=VERTEX_POINT('',#354);
#91=VERTEX_POINT('',#355);
#92=VERTEX_POINT('',#357);
#93=VERTEX_POINT('',#361);
#94=VERTEX_POINT('',#362);
#95=VERTEX_POINT('',#367);
#96=VERTEX_POINT('',#368);
#97=VERTEX_POINT('',#373);
#98=VERTEX_POINT('',#374);
#99=VERTEX_POINT('',#378);
#100=EDGE_CURVE('',#81,#82,#64,.T.);
#101=EDGE_CURVE('',#82,#81,#65,.T.);
#102=EDGE_CURVE('',#83,#81,#22,.T.);
#103=EDGE_CURVE('',#84,#83,#20,.T.);
#104=EDGE_CURVE('',#85,#84,#66,.T.);
#105=EDGE_CURVE('',#86,#85,#21,.T.);
#106=EDGE_CURVE('',#82,#86,#23,.T.);
#107=EDGE_CURVE('',#87,#86,#67,.T.);
#108=EDGE_CURVE('',#87,#88,#24,.T.);
#109=EDGE_CURVE('',#88,#89,#68,.T.);
#110=EDGE_CURVE('',#89,#88,#69,.T.);
#111=EDGE_CURVE('',#83,#87,#70,.T.);
#112=EDGE_CURVE('',#90,#91,#71,.T.);
#113=EDGE_CURVE('',#91,#92,#25,.T.);
#114=EDGE_CURVE('',#91,#90,#72,.T.);
#115=EDGE_CURVE('',#93,#94,#73,.T.);
#116=EDGE_CURVE('',#94,#93,#74,.T.);
#117=EDGE_CURVE('',#94,#91,#26,.T.);
#118=EDGE_CURVE('',#95,#96,#75,.T.);
#119=EDGE_CURVE('',#96,#88,#27,.T.);
#120=EDGE_CURVE('',#96,#95,#76,.T.);
#121=EDGE_CURVE('',#97,#98,#77,.T.);
#122=EDGE_CURVE('',#98,#97,#78,.T.);
#123=EDGE_CURVE('',#98,#99,#28,.T.);
#124=EDGE_CURVE('',#99,#99,#79,.T.);
#125=EDGE_CURVE('',#85,#84,#80,.T.);
#126=ORIENTED_EDGE('',*,*,#100,.F.);
#127=ORIENTED_EDGE('',*,*,#101,.F.);
#128=ORIENTED_EDGE('',*,*,#102,.F.);
#129=ORIENTED_EDGE('',*,*,#103,.F.);
#130=ORIENTED_EDGE('',*,*,#104,.F.);
#131=ORIENTED_EDGE('',*,*,#105,.F.);
#132=ORIENTED_EDGE('',*,*,#106,.F.);
#133=ORIENTED_EDGE('',*,*,#101,.T.);
#134=ORIENTED_EDGE('',*,*,#102,.T.);
#135=ORIENTED_EDGE('',*,*,#100,.T.);
#136=ORIENTED_EDGE('',*,*,#106,.T.);
#137=ORIENTED_EDGE('',*,*,#107,.F.);
#138=ORIENTED_EDGE('',*,*,#108,.T.);
#139=ORIENTED_EDGE('',*,*,#109,.T.);
#140=ORIENTED_EDGE('',*,*,#110,.T.);
#141=ORIENTED_EDGE('',*,*,#108,.F.);
#142=ORIENTED_EDGE('',*,*,#111,.F.);
#143=ORIENTED_EDGE('',*,*,#112,.T.);
#144=ORIENTED_EDGE('',*,*,#113,.T.);
#145=ORIENTED_EDGE('',*,*,#113,.F.);
#146=ORIENTED_EDGE('',*,*,#114,.T.);
#147=ORIENTED_EDGE('',*,*,#115,.F.);
#148=ORIENTED_EDGE('',*,*,#116,.F.);
#149=ORIENTED_EDGE('',*,*,#117,.T.);
#150=ORIENTED_EDGE('',*,*,#112,.F.);
#151=ORIENTED_EDGE('',*,*,#114,.F.);
#152=ORIENTED_EDGE('',*,*,#117,.F.);
#153=ORIENTED_EDGE('',*,*,#118,.T.);
#154=ORIENTED_EDGE('',*,*,#119,.T.);
#155=ORIENTED_EDGE('',*,*,#110,.F.);
#156=ORIENTED_EDGE('',*,*,#109,.F.);
#157=ORIENTED_EDGE('',*,*,#119,.F.);
#158=ORIENTED_EDGE('',*,*,#120,.T.);
#159=ORIENTED_EDGE('',*,*,#121,.F.);
#160=ORIENTED_EDGE('',*,*,#122,.F.);
#161=ORIENTED_EDGE('',*,*,#118,.F.);
#162=ORIENTED_EDGE('',*,*,#120,.F.);
#163=ORIENTED_EDGE('',*,*,#121,.T.);
#164=ORIENTED_EDGE('',*,*,#123,.T.);
#165=ORIENTED_EDGE('',*,*,#124,.F.);
#166=ORIENTED_EDGE('',*,*,#123,.F.);
#167=ORIENTED_EDGE('',*,*,#122,.T.);
#168=ORIENTED_EDGE('',*,*,#103,.T.);
#169=ORIENTED_EDGE('',*,*,#111,.T.);
#170=ORIENTED_EDGE('',*,*,#107,.T.);
#171=ORIENTED_EDGE('',*,*,#105,.T.);
#172=ORIENTED_EDGE('',*,*,#125,.T.);
#173=ORIENTED_EDGE('',*,*,#104,.T.);
#174=ORIENTED_EDGE('',*,*,#125,.F.);
#175=ORIENTED_EDGE('',*,*,#115,.T.);
#176=ORIENTED_EDGE('',*,*,#116,.T.);
#177=ORIENTED_EDGE('',*,*,#124,.T.);
#178=PLANE('',#213);
#179=PLANE('',#232);
#180=PLANE('',#239);
#181=PLANE('',#240);
#182=ADVANCED_FACE('',(#40),#178,.T.);
#183=ADVANCED_FACE('',(#41),#36,.F.);
#184=ADVANCED_FACE('',(#42),#37,.T.);
#185=ADVANCED_FACE('',(#43),#18,.F.);
#186=ADVANCED_FACE('',(#44),#38,.F.);
#187=ADVANCED_FACE('',(#45),#19,.T.);
#188=ADVANCED_FACE('',(#46,#16),#179,.F.);
#189=ADVANCED_FACE('',(#47),#39,.T.);
#190=ADVANCED_FACE('',(#48),#15,.T.);
#191=ADVANCED_FACE('',(#49,#17),#180,.T.);
#192=ADVANCED_FACE('',(#50),#181,.F.);
#193=CLOSED_SHELL('',(#182,#183,#184,#185,#186,#187,#188,#189,#190,#191,
#192));
#194=DERIVED_UNIT_ELEMENT(#196,1.);
#195=DERIVED_UNIT_ELEMENT(#392,3.);
#196=(
MASS_UNIT()
NAMED_UNIT(*)
SI_UNIT($,.GRAM.)
);
#197=DERIVED_UNIT((#194,#195));
#198=MEASURE_REPRESENTATION_ITEM('density measure',
POSITIVE_RATIO_MEASURE(7.9994924612487),#197);
#199=PROPERTY_DEFINITION_REPRESENTATION(#204,#201);
#200=PROPERTY_DEFINITION_REPRESENTATION(#205,#202);
#201=REPRESENTATION('material name',(#203),#387);
#202=REPRESENTATION('density',(#198),#387);
#203=DESCRIPTIVE_REPRESENTATION_ITEM('SST-17-4','SST-17-4');
#204=PROPERTY_DEFINITION('material property','material name',#400);
#205=PROPERTY_DEFINITION('material property','density of part',#400);
#206=DATE_TIME_ROLE('creation_date');
#207=APPLIED_DATE_AND_TIME_ASSIGNMENT(#208,#206,(#400));
#208=DATE_AND_TIME(#209,#210);
#209=CALENDAR_DATE(2019,22,5);
#210=LOCAL_TIME(15,40,18.,#211);
#211=COORDINATED_UNIVERSAL_TIME_OFFSET(0,0,.BEHIND.);
#212=AXIS2_PLACEMENT_3D('placement',#306,#241,#242);
#213=AXIS2_PLACEMENT_3D('',#307,#243,#244);
#214=AXIS2_PLACEMENT_3D('',#310,#245,#246);
#215=AXIS2_PLACEMENT_3D('',#311,#247,#248);
#216=AXIS2_PLACEMENT_3D('',#312,#249,#250);
#217=AXIS2_PLACEMENT_3D('',#329,#252,#253);
#218=AXIS2_PLACEMENT_3D('',#344,#255,#256);
#219=AXIS2_PLACEMENT_3D('',#346,#257,#258);
#220=AXIS2_PLACEMENT_3D('',#350,#260,#261);
#221=AXIS2_PLACEMENT_3D('',#351,#262,#263);
#222=AXIS2_PLACEMENT_3D('',#352,#264,#265);
#223=AXIS2_PLACEMENT_3D('',#353,#266,#267);
#224=AXIS2_PLACEMENT_3D('',#356,#268,#269);
#225=AXIS2_PLACEMENT_3D('',#359,#271,#272);
#226=AXIS2_PLACEMENT_3D('',#360,#273,#274);
#227=AXIS2_PLACEMENT_3D('',#363,#275,#276);
#228=AXIS2_PLACEMENT_3D('',#364,#277,#278);
#229=AXIS2_PLACEMENT_3D('',#366,#280,#281);
#230=AXIS2_PLACEMENT_3D('',#369,#282,#283);
#231=AXIS2_PLACEMENT_3D('',#371,#285,#286);
#232=AXIS2_PLACEMENT_3D('',#372,#287,#288);
#233=AXIS2_PLACEMENT_3D('',#375,#289,#290);
#234=AXIS2_PLACEMENT_3D('',#376,#291,#292);
#235=AXIS2_PLACEMENT_3D('',#377,#293,#294);
#236=AXIS2_PLACEMENT_3D('',#380,#296,#297);
#237=AXIS2_PLACEMENT_3D('',#381,#298,#299);
#238=AXIS2_PLACEMENT_3D('',#382,#300,#301);
#239=AXIS2_PLACEMENT_3D('',#383,#302,#303);
#240=AXIS2_PLACEMENT_3D('',#384,#304,#305);
#241=DIRECTION('axis',(0.,0.,1.));
#242=DIRECTION('refdir',(1.,0.,0.));
#243=DIRECTION('center_axis',(0.,1.,0.));
#244=DIRECTION('ref_axis',(0.,0.,1.));
#245=DIRECTION('center_axis',(0.,-1.,0.));
#246=DIRECTION('ref_axis',(1.,0.,0.));
#247=DIRECTION('center_axis',(0.,-1.,0.));
#248=DIRECTION('ref_axis',(1.,0.,0.));
#249=DIRECTION('center_axis',(0.,-1.,0.));
#250=DIRECTION('ref_axis',(1.,0.,0.));
#251=DIRECTION('',(0.,-1.,0.));
#252=DIRECTION('center_axis',(0.,-1.,0.));
#253=DIRECTION('ref_axis',(1.,0.,0.));
#254=DIRECTION('',(0.,1.,0.));
#255=DIRECTION('center_axis',(0.,1.,0.));
#256=DIRECTION('ref_axis',(1.,0.,0.));
#257=DIRECTION('center_axis',(0.,1.,0.));
#258=DIRECTION('ref_axis',(1.,0.,0.));
#259=DIRECTION('',(0.,-1.,0.));
#260=DIRECTION('center_axis',(0.,1.,0.));
#261=DIRECTION('ref_axis',(1.,0.,0.));
#262=DIRECTION('center_axis',(0.,1.,0.));
#263=DIRECTION('ref_axis',(1.,0.,0.));
#264=DIRECTION('center_axis',(0.,1.,0.));
#265=DIRECTION('ref_axis',(1.,0.,0.));
#266=DIRECTION('center_axis',(0.,1.,0.));
#267=DIRECTION('ref_axis',(-1.,0.,0.));
#268=DIRECTION('center_axis',(0.,1.,0.));
#269=DIRECTION('ref_axis',(-1.,0.,0.));
#270=DIRECTION('',(-0.857167300702112,-0.515038074910054,1.04972719113862E-16));
#271=DIRECTION('center_axis',(0.,1.,0.));
#272=DIRECTION('ref_axis',(-1.,0.,0.));
#273=DIRECTION('center_axis',(0.,1.,0.));
#274=DIRECTION('ref_axis',(-1.,0.,0.));
#275=DIRECTION('center_axis',(0.,-1.,0.));
#276=DIRECTION('ref_axis',(-1.,0.,0.));
#277=DIRECTION('center_axis',(0.,-1.,0.));
#278=DIRECTION('ref_axis',(-1.,0.,0.));
#279=DIRECTION('',(0.,-1.,0.));
#280=DIRECTION('center_axis',(0.,1.,0.));
#281=DIRECTION('ref_axis',(1.,0.,0.));
#282=DIRECTION('center_axis',(0.,1.,0.));
#283=DIRECTION('ref_axis',(1.,0.,0.));
#284=DIRECTION('',(-0.707106781186547,0.707106781186548,8.65956056235493E-17));
#285=DIRECTION('center_axis',(0.,1.,0.));
#286=DIRECTION('ref_axis',(1.,0.,0.));
#287=DIRECTION('center_axis',(0.,-1.,0.));
#288=DIRECTION('ref_axis',(0.,0.,-1.));
#289=DIRECTION('center_axis',(0.,-1.,0.));
#290=DIRECTION('ref_axis',(1.,0.,0.));
#291=DIRECTION('center_axis',(0.,-1.,0.));
#292=DIRECTION('ref_axis',(1.,0.,0.));
#293=DIRECTION('center_axis',(0.,1.,0.));
#294=DIRECTION('ref_axis',(1.,0.,0.));
#295=DIRECTION('',(0.,-1.,0.));
#296=DIRECTION('center_axis',(0.,-1.,0.));
#297=DIRECTION('ref_axis',(1.,0.,0.));
#298=DIRECTION('center_axis',(0.,1.,0.));
#299=DIRECTION('ref_axis',(0.,0.,1.));
#300=DIRECTION('center_axis',(0.,-1.,0.));
#301=DIRECTION('ref_axis',(1.,0.,0.));
#302=DIRECTION('center_axis',(0.,1.,0.));
#303=DIRECTION('ref_axis',(0.,0.,1.));
#304=DIRECTION('center_axis',(0.,1.,0.));
#305=DIRECTION('ref_axis',(0.,0.,1.));
#306=CARTESIAN_POINT('',(0.,0.,0.));
#307=CARTESIAN_POINT('Origin',(4.06349731439723E-17,0.225,-0.72521589858875));
#308=CARTESIAN_POINT('',(-0.133764155792948,0.225,-0.481775));
#309=CARTESIAN_POINT('',(0.133764155792948,0.225,-0.481775));
#310=CARTESIAN_POINT('Origin',(0.,0.225,0.));
#311=CARTESIAN_POINT('Origin',(0.,0.225,-0.5));
#312=CARTESIAN_POINT('Origin',(0.,0.375,-0.5));
#313=CARTESIAN_POINT('',(-0.133764155792948,0.345,-0.481775));
#314=CARTESIAN_POINT('',(-0.133764155792948,0.375,-0.481775));
#315=CARTESIAN_POINT('',(-0.126433161690278,0.375,-0.452675));
#316=CARTESIAN_POINT('Ctrl Pts',(-0.126433161690278,0.375,-0.452675));
#317=CARTESIAN_POINT('Ctrl Pts',(-0.126518603465422,0.375,-0.452903265689845));
#318=CARTESIAN_POINT('Ctrl Pts',(-0.126603479112464,0.37499705157125,-0.453131902059775));
#319=CARTESIAN_POINT('Ctrl Pts',(-0.128016719687892,0.374897927541611,-0.456970744425196));
#320=CARTESIAN_POINT('Ctrl Pts',(-0.12916432935655,0.37407093588539,-0.460578545203479));
#321=CARTESIAN_POINT('Ctrl Pts',(-0.131064144875815,0.371000307234442,-0.467441287874335));
#322=CARTESIAN_POINT('Ctrl Pts',(-0.131790756109694,0.368767905797021,-0.470611521524561));
#323=CARTESIAN_POINT('Ctrl Pts',(-0.132872489112337,0.363193207258805,-0.475971565002407));
#324=CARTESIAN_POINT('Ctrl Pts',(-0.13322223454766,0.359902429552998,-0.47811347080184));
#325=CARTESIAN_POINT('Ctrl Pts',(-0.133667687261769,0.352706265497234,-0.481023712742498));
#326=CARTESIAN_POINT('Ctrl Pts',(-0.133764155792948,0.348873533656735,-0.481775));
#327=CARTESIAN_POINT('Ctrl Pts',(-0.133764155792948,0.345,-0.481775));
#328=CARTESIAN_POINT('',(0.126433161690278,0.375,-0.452675));
#329=CARTESIAN_POINT('Origin',(0.,0.375,-0.5));
#330=CARTESIAN_POINT('',(0.133764155792948,0.345,-0.481775));
#331=CARTESIAN_POINT('Ctrl Pts',(0.133764155792948,0.345,-0.481775));
#332=CARTESIAN_POINT('Ctrl Pts',(0.133764155792948,0.347270145917385,-0.481775));
#333=CARTESIAN_POINT('Ctrl Pts',(0.1337297686742,0.349531901211167,-0.481517210275301));
#334=CARTESIAN_POINT('Ctrl Pts',(0.133585010821728,0.353955213388838,-0.480498468444337));
#335=CARTESIAN_POINT('Ctrl Pts',(0.133474957965575,0.356101211585925,-0.479740789839668));
#336=CARTESIAN_POINT('Ctrl Pts',(0.133047163974806,0.361644000565822,-0.477056498692705));
#337=CARTESIAN_POINT('Ctrl Pts',(0.132641217712331,0.36478104612259,-0.474705924330122));
#338=CARTESIAN_POINT('Ctrl Pts',(0.131437634078522,0.369926568710477,-0.46905918713078));
#339=CARTESIAN_POINT('Ctrl Pts',(0.130654362852852,0.371907843754647,-0.465832267139684));
#340=CARTESIAN_POINT('Ctrl Pts',(0.12873475745007,0.374398429581831,-0.459218490946231));
#341=CARTESIAN_POINT('Ctrl Pts',(0.127654364620885,0.375,-0.455937557793598));
#342=CARTESIAN_POINT('Ctrl Pts',(0.126433161690278,0.375,-0.452675));
#343=CARTESIAN_POINT('',(0.133764155792948,0.375,-0.481775));
#344=CARTESIAN_POINT('Origin',(0.,0.,0.));
#345=CARTESIAN_POINT('',(-0.5,0.345,6.12323399573677E-17));
#346=CARTESIAN_POINT('Origin',(0.,0.345,0.));
#347=CARTESIAN_POINT('',(-0.5,0.0600000000000001,6.12323399573677E-17));
#348=CARTESIAN_POINT('',(-0.5,0.,6.12323399573677E-17));
#349=CARTESIAN_POINT('',(0.5,0.0600000000000001,0.));
#350=CARTESIAN_POINT('Origin',(0.,0.0600000000000001,0.));
#351=CARTESIAN_POINT('Origin',(0.,0.0600000000000001,0.));
#352=CARTESIAN_POINT('Origin',(0.,0.345,0.));
#353=CARTESIAN_POINT('Origin',(0.,0.0683046023462962,0.));
#354=CARTESIAN_POINT('',(-0.1055,0.1,0.));
#355=CARTESIAN_POINT('',(0.1055,0.1,-1.29200237310046E-17));
#356=CARTESIAN_POINT('Origin',(0.,0.1,0.));
#357=CARTESIAN_POINT('',(0.,0.0366092046925924,0.));
#358=CARTESIAN_POINT('',(0.05275,0.0683046023462962,-6.46001186550229E-18));
#359=CARTESIAN_POINT('Origin',(0.,0.1,0.));
#360=CARTESIAN_POINT('Origin',(0.,0.2375,0.));
#361=CARTESIAN_POINT('',(-0.1055,0.375,0.));
#362=CARTESIAN_POINT('',(0.1055,0.375,-1.29200237310046E-17));
#363=CARTESIAN_POINT('Origin',(0.,0.375,0.));
#364=CARTESIAN_POINT('Origin',(0.,0.375,0.));
#365=CARTESIAN_POINT('',(0.1055,0.2375,-1.29200237310046E-17));
#366=CARTESIAN_POINT('Origin',(0.,0.0450000000000001,0.));
#367=CARTESIAN_POINT('',(0.47,0.0300000000000001,0.));
#368=CARTESIAN_POINT('',(-0.47,0.0300000000000001,5.75583995599256E-17));
#369=CARTESIAN_POINT('Origin',(0.,0.0300000000000001,0.));
#370=CARTESIAN_POINT('',(-0.485,0.0450000000000001,5.93953697586466E-17));
#371=CARTESIAN_POINT('Origin',(0.,0.0300000000000001,0.));
#372=CARTESIAN_POINT('Origin',(0.485,0.0300000000000001,0.));
#373=CARTESIAN_POINT('',(0.5,0.0300000000000001,0.));
#374=CARTESIAN_POINT('',(-0.5,0.0300000000000001,6.12323399573677E-17));
#375=CARTESIAN_POINT('Origin',(0.,0.0300000000000001,0.));
#376=CARTESIAN_POINT('Origin',(0.,0.0300000000000001,0.));
#377=CARTESIAN_POINT('Origin',(0.,0.,0.));
#378=CARTESIAN_POINT('',(-0.5,0.,6.12323399573677E-17));
#379=CARTESIAN_POINT('',(-0.5,0.,6.12323399573677E-17));
#380=CARTESIAN_POINT('Origin',(0.,0.,0.));
#381=CARTESIAN_POINT('Origin',(0.,0.345,0.));
#382=CARTESIAN_POINT('Origin',(0.,0.375,0.));
#383=CARTESIAN_POINT('Origin',(2.8047350061344E-17,0.375,-1.14723275324483E-17));
#384=CARTESIAN_POINT('Origin',(2.8047350061344E-17,0.,-1.14723275324483E-17));
#385=UNCERTAINTY_MEASURE_WITH_UNIT(LENGTH_MEASURE(0.000393700787401575),
#390,'DISTANCE_ACCURACY_VALUE',
'Maximum model space distance between geometric entities at asserted c
onnectivities');
#386=UNCERTAINTY_MEASURE_WITH_UNIT(LENGTH_MEASURE(0.000393700787401575),
#390,'DISTANCE_ACCURACY_VALUE',
'Maximum model space distance between geometric entities at asserted c
onnectivities');
#387=(
GEOMETRIC_REPRESENTATION_CONTEXT(3)
GLOBAL_UNCERTAINTY_ASSIGNED_CONTEXT((#385))
GLOBAL_UNIT_ASSIGNED_CONTEXT((#390,#394,#395))
REPRESENTATION_CONTEXT('','3D')
);
#388=(
GEOMETRIC_REPRESENTATION_CONTEXT(3)
GLOBAL_UNCERTAINTY_ASSIGNED_CONTEXT((#386))
GLOBAL_UNIT_ASSIGNED_CONTEXT((#390,#394,#395))
REPRESENTATION_CONTEXT('','3D')
);
#389=DIMENSIONAL_EXPONENTS(1.,0.,0.,0.,0.,0.,0.);
#390=(
CONVERSION_BASED_UNIT('inch',#393)
LENGTH_UNIT()
NAMED_UNIT(#389)
);
#391=(
LENGTH_UNIT()
NAMED_UNIT(*)
SI_UNIT(.MILLI.,.METRE.)
);
#392=(
LENGTH_UNIT()
NAMED_UNIT(*)
SI_UNIT(.CENTI.,.METRE.)
);
#393=LENGTH_MEASURE_WITH_UNIT(LENGTH_MEASURE(25.4),#391);
#394=(
NAMED_UNIT(*)
PLANE_ANGLE_UNIT()
SI_UNIT($,.RADIAN.)
);
#395=(
NAMED_UNIT(*)
SI_UNIT($,.STERADIAN.)
SOLID_ANGLE_UNIT()
);
#396=SHAPE_DEFINITION_REPRESENTATION(#397,#398);
#397=PRODUCT_DEFINITION_SHAPE('',$,#400);
#398=SHAPE_REPRESENTATION('',(#212),#387);
#399=PRODUCT_DEFINITION_CONTEXT('part definition',#404,'design');
#400=PRODUCT_DEFINITION('MH130-1T','MH130-1T',#401,#399);
#401=PRODUCT_DEFINITION_FORMATION('D',$,#406);
#402=PRODUCT_RELATED_PRODUCT_CATEGORY('MH130-1T','MH130-1T',(#406));
#403=APPLICATION_PROTOCOL_DEFINITION('international standard',
'automotive_design',2009,#404);
#404=APPLICATION_CONTEXT(
'Core Data for Automotive Mechanical Design Process');
#405=PRODUCT_CONTEXT('part definition',#404,'mechanical');
#406=PRODUCT('MH130-1T','MH130-1T','MH130-1A MOUNTING PAD',(#405));
#407=PRESENTATION_STYLE_ASSIGNMENT((#408));
#408=SURFACE_STYLE_USAGE(.BOTH.,#411);
#409=SURFACE_STYLE_RENDERING_WITH_PROPERTIES($,#415,(#410));
#410=SURFACE_STYLE_TRANSPARENT(0.);
#411=SURFACE_SIDE_STYLE('',(#412,#409));
#412=SURFACE_STYLE_FILL_AREA(#413);
#413=FILL_AREA_STYLE('',(#414));
#414=FILL_AREA_STYLE_COLOUR('',#415);
#415=COLOUR_RGB('',0.745098039215686,0.737254901960784,0.729411764705882);
ENDSEC;
END-ISO-10303-21;
