ISO-10303-21;
HEADER;
/* Generated by software containing ST-Developer
 * from STEP Tools, Inc. (www.steptools.com) 
 */

FILE_DESCRIPTION(
/* description */ (''),
/* implementation_level */ '2;1');

FILE_NAME(
/* name */ 
'F:\\Engineering, Marketing\\Product Drawings\\STEP FILES\\MISC\\MH104
-1B.stp',
/* time_stamp */ '2017-05-05T16:59:27-04:00',
/* author */ ('aneininger'),
/* organization */ (''),
/* preprocessor_version */ 'ST-DEVELOPER v16.5',
/* originating_system */ 'Autodesk Inventor 2017',
/* authorisation */ '');

FILE_SCHEMA (('AUTOMOTIVE_DESIGN { 1 0 10303 214 3 1 1 }'));
ENDSEC;

DATA;
#10=MECHANICAL_DESIGN_GEOMETRIC_PRESENTATION_REPRESENTATION('',(#187,#176,
#175,#180,#179,#182,#183,#191,#192,#186,#189,#190,#181,#177,#178,#185,#184,
#188),#372);
#11=SHAPE_REPRESENTATION_RELATIONSHIP('SRR','None',#384,#12);
#12=ADVANCED_BREP_SHAPE_REPRESENTATION('',(#13),#371);
#13=MANIFOLD_SOLID_BREP('Solid2',#210);
#14=TOROIDAL_SURFACE('',#238,0.59,0.03);
#15=CONICAL_SURFACE('',#230,0.11425,45.);
#16=CONICAL_SURFACE('',#235,0.11425,45.);
#17=CYLINDRICAL_SURFACE('',#224,0.62);
#18=CYLINDRICAL_SURFACE('',#228,0.62);
#19=CYLINDRICAL_SURFACE('',#233,0.125);
#20=CYLINDRICAL_SURFACE('',#242,0.1035);
#21=CYLINDRICAL_SURFACE('',#243,0.6275);
#22=CYLINDRICAL_SURFACE('',#248,0.45);
#23=FACE_BOUND('',#56,.T.);
#24=FACE_BOUND('',#58,.T.);
#25=FACE_BOUND('',#60,.T.);
#26=FACE_BOUND('',#62,.T.);
#27=FACE_BOUND('',#64,.T.);
#28=FACE_BOUND('',#66,.T.);
#29=FACE_BOUND('',#68,.T.);
#30=FACE_BOUND('',#70,.T.);
#31=FACE_BOUND('',#73,.T.);
#32=FACE_BOUND('',#75,.T.);
#33=FACE_BOUND('',#77,.T.);
#34=FACE_BOUND('',#79,.T.);
#35=FACE_BOUND('',#81,.T.);
#36=FACE_BOUND('',#83,.T.);
#37=FACE_BOUND('',#85,.T.);
#38=FACE_OUTER_BOUND('',#55,.T.);
#39=FACE_OUTER_BOUND('',#57,.T.);
#40=FACE_OUTER_BOUND('',#59,.T.);
#41=FACE_OUTER_BOUND('',#61,.T.);
#42=FACE_OUTER_BOUND('',#63,.T.);
#43=FACE_OUTER_BOUND('',#65,.T.);
#44=FACE_OUTER_BOUND('',#67,.T.);
#45=FACE_OUTER_BOUND('',#69,.T.);
#46=FACE_OUTER_BOUND('',#71,.T.);
#47=FACE_OUTER_BOUND('',#72,.T.);
#48=FACE_OUTER_BOUND('',#74,.T.);
#49=FACE_OUTER_BOUND('',#76,.T.);
#50=FACE_OUTER_BOUND('',#78,.T.);
#51=FACE_OUTER_BOUND('',#80,.T.);
#52=FACE_OUTER_BOUND('',#82,.T.);
#53=FACE_OUTER_BOUND('',#84,.T.);
#54=FACE_OUTER_BOUND('',#86,.T.);
#55=EDGE_LOOP('',(#135));
#56=EDGE_LOOP('',(#136));
#57=EDGE_LOOP('',(#137));
#58=EDGE_LOOP('',(#138));
#59=EDGE_LOOP('',(#139));
#60=EDGE_LOOP('',(#140));
#61=EDGE_LOOP('',(#141));
#62=EDGE_LOOP('',(#142));
#63=EDGE_LOOP('',(#143));
#64=EDGE_LOOP('',(#144));
#65=EDGE_LOOP('',(#145));
#66=EDGE_LOOP('',(#146));
#67=EDGE_LOOP('',(#147));
#68=EDGE_LOOP('',(#148));
#69=EDGE_LOOP('',(#149));
#70=EDGE_LOOP('',(#150));
#71=EDGE_LOOP('',(#151));
#72=EDGE_LOOP('',(#152));
#73=EDGE_LOOP('',(#153));
#74=EDGE_LOOP('',(#154));
#75=EDGE_LOOP('',(#155));
#76=EDGE_LOOP('',(#156));
#77=EDGE_LOOP('',(#157));
#78=EDGE_LOOP('',(#158));
#79=EDGE_LOOP('',(#159));
#80=EDGE_LOOP('',(#160));
#81=EDGE_LOOP('',(#161));
#82=EDGE_LOOP('',(#162));
#83=EDGE_LOOP('',(#163));
#84=EDGE_LOOP('',(#164));
#85=EDGE_LOOP('',(#165));
#86=EDGE_LOOP('',(#166));
#87=CIRCLE('',#219,0.62);
#88=CIRCLE('',#220,0.5);
#89=CIRCLE('',#222,0.6275);
#90=CIRCLE('',#223,0.62);
#91=CIRCLE('',#226,0.6275);
#92=CIRCLE('',#227,0.62);
#93=CIRCLE('',#229,0.62);
#94=CIRCLE('',#231,0.1035);
#95=CIRCLE('',#232,0.125);
#96=CIRCLE('',#234,0.125);
#97=CIRCLE('',#236,0.1035);
#98=CIRCLE('',#239,0.59);
#99=CIRCLE('',#241,0.1035);
#100=CIRCLE('',#245,0.455);
#101=CIRCLE('',#247,0.45);
#102=CIRCLE('',#249,0.45);
#103=VERTEX_POINT('',#321);
#104=VERTEX_POINT('',#323);
#105=VERTEX_POINT('',#326);
#106=VERTEX_POINT('',#328);
#107=VERTEX_POINT('',#332);
#108=VERTEX_POINT('',#334);
#109=VERTEX_POINT('',#337);
#110=VERTEX_POINT('',#340);
#111=VERTEX_POINT('',#342);
#112=VERTEX_POINT('',#345);
#113=VERTEX_POINT('',#348);
#114=VERTEX_POINT('',#352);
#115=VERTEX_POINT('',#355);
#116=VERTEX_POINT('',#360);
#117=VERTEX_POINT('',#363);
#118=VERTEX_POINT('',#366);
#119=EDGE_CURVE('',#103,#103,#87,.T.);
#120=EDGE_CURVE('',#104,#104,#88,.T.);
#121=EDGE_CURVE('',#105,#105,#89,.T.);
#122=EDGE_CURVE('',#106,#106,#90,.T.);
#123=EDGE_CURVE('',#107,#107,#91,.T.);
#124=EDGE_CURVE('',#108,#108,#92,.T.);
#125=EDGE_CURVE('',#109,#109,#93,.T.);
#126=EDGE_CURVE('',#110,#110,#94,.T.);
#127=EDGE_CURVE('',#111,#111,#95,.T.);
#128=EDGE_CURVE('',#112,#112,#96,.T.);
#129=EDGE_CURVE('',#113,#113,#97,.T.);
#130=EDGE_CURVE('',#114,#114,#98,.T.);
#131=EDGE_CURVE('',#115,#115,#99,.T.);
#132=EDGE_CURVE('',#116,#116,#100,.T.);
#133=EDGE_CURVE('',#117,#117,#101,.T.);
#134=EDGE_CURVE('',#118,#118,#102,.T.);
#135=ORIENTED_EDGE('',*,*,#119,.T.);
#136=ORIENTED_EDGE('',*,*,#120,.T.);
#137=ORIENTED_EDGE('',*,*,#121,.F.);
#138=ORIENTED_EDGE('',*,*,#122,.F.);
#139=ORIENTED_EDGE('',*,*,#122,.T.);
#140=ORIENTED_EDGE('',*,*,#119,.F.);
#141=ORIENTED_EDGE('',*,*,#123,.F.);
#142=ORIENTED_EDGE('',*,*,#124,.T.);
#143=ORIENTED_EDGE('',*,*,#125,.F.);
#144=ORIENTED_EDGE('',*,*,#124,.F.);
#145=ORIENTED_EDGE('',*,*,#126,.T.);
#146=ORIENTED_EDGE('',*,*,#127,.T.);
#147=ORIENTED_EDGE('',*,*,#128,.F.);
#148=ORIENTED_EDGE('',*,*,#127,.F.);
#149=ORIENTED_EDGE('',*,*,#128,.T.);
#150=ORIENTED_EDGE('',*,*,#129,.T.);
#151=ORIENTED_EDGE('',*,*,#129,.F.);
#152=ORIENTED_EDGE('',*,*,#130,.F.);
#153=ORIENTED_EDGE('',*,*,#125,.T.);
#154=ORIENTED_EDGE('',*,*,#130,.T.);
#155=ORIENTED_EDGE('',*,*,#131,.F.);
#156=ORIENTED_EDGE('',*,*,#126,.F.);
#157=ORIENTED_EDGE('',*,*,#131,.T.);
#158=ORIENTED_EDGE('',*,*,#121,.T.);
#159=ORIENTED_EDGE('',*,*,#123,.T.);
#160=ORIENTED_EDGE('',*,*,#120,.F.);
#161=ORIENTED_EDGE('',*,*,#132,.F.);
#162=ORIENTED_EDGE('',*,*,#132,.T.);
#163=ORIENTED_EDGE('',*,*,#133,.F.);
#164=ORIENTED_EDGE('',*,*,#133,.T.);
#165=ORIENTED_EDGE('',*,*,#134,.F.);
#166=ORIENTED_EDGE('',*,*,#134,.T.);
#167=PLANE('',#218);
#168=PLANE('',#221);
#169=PLANE('',#225);
#170=PLANE('',#237);
#171=PLANE('',#240);
#172=PLANE('',#244);
#173=PLANE('',#246);
#174=PLANE('',#250);
#175=STYLED_ITEM('',(#394),#193);
#176=STYLED_ITEM('',(#394),#194);
#177=STYLED_ITEM('',(#394),#195);
#178=STYLED_ITEM('',(#394),#196);
#179=STYLED_ITEM('',(#394),#197);
#180=STYLED_ITEM('',(#394),#198);
#181=STYLED_ITEM('',(#394),#199);
#182=STYLED_ITEM('',(#394),#200);
#183=STYLED_ITEM('',(#394),#201);
#184=STYLED_ITEM('',(#394),#202);
#185=STYLED_ITEM('',(#394),#203);
#186=STYLED_ITEM('',(#394),#204);
#187=STYLED_ITEM('',(#395),#205);
#188=STYLED_ITEM('',(#394),#206);
#189=STYLED_ITEM('',(#396),#207);
#190=STYLED_ITEM('',(#394),#208);
#191=STYLED_ITEM('',(#394),#209);
#192=STYLED_ITEM('',(#393),#13);
#193=ADVANCED_FACE('',(#38,#23),#167,.T.);
#194=ADVANCED_FACE('',(#39,#24),#168,.F.);
#195=ADVANCED_FACE('',(#40,#25),#17,.T.);
#196=ADVANCED_FACE('',(#41,#26),#169,.F.);
#197=ADVANCED_FACE('',(#42,#27),#18,.T.);
#198=ADVANCED_FACE('',(#43,#28),#15,.T.);
#199=ADVANCED_FACE('',(#44,#29),#19,.T.);
#200=ADVANCED_FACE('',(#45,#30),#16,.T.);
#201=ADVANCED_FACE('',(#46),#170,.T.);
#202=ADVANCED_FACE('',(#47,#31),#14,.T.);
#203=ADVANCED_FACE('',(#48,#32),#171,.T.);
#204=ADVANCED_FACE('',(#49,#33),#20,.T.);
#205=ADVANCED_FACE('',(#50,#34),#21,.T.);
#206=ADVANCED_FACE('',(#51,#35),#172,.F.);
#207=ADVANCED_FACE('',(#52,#36),#173,.F.);
#208=ADVANCED_FACE('',(#53,#37),#22,.T.);
#209=ADVANCED_FACE('',(#54),#174,.T.);
#210=CLOSED_SHELL('',(#193,#194,#195,#196,#197,#198,#199,#200,#201,#202,
#203,#204,#205,#206,#207,#208,#209));
#211=DATE_TIME_ROLE('creation_date');
#212=APPLIED_DATE_AND_TIME_ASSIGNMENT(#213,#211,(#386));
#213=DATE_AND_TIME(#214,#215);
#214=CALENDAR_DATE(2010,18,6);
#215=LOCAL_TIME(17,36,59.,#216);
#216=COORDINATED_UNIVERSAL_TIME_OFFSET(0,0,.BEHIND.);
#217=AXIS2_PLACEMENT_3D('placement',#319,#251,#252);
#218=AXIS2_PLACEMENT_3D('',#320,#253,#254);
#219=AXIS2_PLACEMENT_3D('',#322,#255,#256);
#220=AXIS2_PLACEMENT_3D('',#324,#257,#258);
#221=AXIS2_PLACEMENT_3D('',#325,#259,#260);
#222=AXIS2_PLACEMENT_3D('',#327,#261,#262);
#223=AXIS2_PLACEMENT_3D('',#329,#263,#264);
#224=AXIS2_PLACEMENT_3D('',#330,#265,#266);
#225=AXIS2_PLACEMENT_3D('',#331,#267,#268);
#226=AXIS2_PLACEMENT_3D('',#333,#269,#270);
#227=AXIS2_PLACEMENT_3D('',#335,#271,#272);
#228=AXIS2_PLACEMENT_3D('',#336,#273,#274);
#229=AXIS2_PLACEMENT_3D('',#338,#275,#276);
#230=AXIS2_PLACEMENT_3D('',#339,#277,#278);
#231=AXIS2_PLACEMENT_3D('',#341,#279,#280);
#232=AXIS2_PLACEMENT_3D('',#343,#281,#282);
#233=AXIS2_PLACEMENT_3D('',#344,#283,#284);
#234=AXIS2_PLACEMENT_3D('',#346,#285,#286);
#235=AXIS2_PLACEMENT_3D('',#347,#287,#288);
#236=AXIS2_PLACEMENT_3D('',#349,#289,#290);
#237=AXIS2_PLACEMENT_3D('',#350,#291,#292);
#238=AXIS2_PLACEMENT_3D('',#351,#293,#294);
#239=AXIS2_PLACEMENT_3D('',#353,#295,#296);
#240=AXIS2_PLACEMENT_3D('',#354,#297,#298);
#241=AXIS2_PLACEMENT_3D('',#356,#299,#300);
#242=AXIS2_PLACEMENT_3D('',#357,#301,#302);
#243=AXIS2_PLACEMENT_3D('',#358,#303,#304);
#244=AXIS2_PLACEMENT_3D('',#359,#305,#306);
#245=AXIS2_PLACEMENT_3D('',#361,#307,#308);
#246=AXIS2_PLACEMENT_3D('',#362,#309,#310);
#247=AXIS2_PLACEMENT_3D('',#364,#311,#312);
#248=AXIS2_PLACEMENT_3D('',#365,#313,#314);
#249=AXIS2_PLACEMENT_3D('',#367,#315,#316);
#250=AXIS2_PLACEMENT_3D('',#368,#317,#318);
#251=DIRECTION('axis',(0.,0.,1.));
#252=DIRECTION('refdir',(1.,0.,0.));
#253=DIRECTION('center_axis',(-1.55330695394579E-16,-1.,0.));
#254=DIRECTION('ref_axis',(0.,0.,-1.));
#255=DIRECTION('center_axis',(-1.55330695394579E-16,-1.,0.));
#256=DIRECTION('ref_axis',(-1.,0.,0.));
#257=DIRECTION('center_axis',(0.,1.,0.));
#258=DIRECTION('ref_axis',(0.0355722956131705,0.,0.999367105614753));
#259=DIRECTION('center_axis',(0.,1.,0.));
#260=DIRECTION('ref_axis',(0.,0.,1.));
#261=DIRECTION('center_axis',(0.,1.,0.));
#262=DIRECTION('ref_axis',(-1.,1.40998606124607E-16,0.));
#263=DIRECTION('center_axis',(0.,-1.,0.));
#264=DIRECTION('ref_axis',(-1.,0.,0.));
#265=DIRECTION('center_axis',(0.,-1.,0.));
#266=DIRECTION('ref_axis',(-1.,0.,0.));
#267=DIRECTION('center_axis',(0.,-1.,0.));
#268=DIRECTION('ref_axis',(0.,0.,-1.));
#269=DIRECTION('center_axis',(0.,-1.,0.));
#270=DIRECTION('ref_axis',(-1.,1.40998606124607E-16,0.));
#271=DIRECTION('center_axis',(0.,-1.,0.));
#272=DIRECTION('ref_axis',(-1.,0.,0.));
#273=DIRECTION('center_axis',(0.,-1.,0.));
#274=DIRECTION('ref_axis',(-1.,0.,0.));
#275=DIRECTION('center_axis',(1.55330695394579E-16,1.,0.));
#276=DIRECTION('ref_axis',(-1.,1.58621071762139E-16,0.));
#277=DIRECTION('center_axis',(1.55330695394579E-16,1.,0.));
#278=DIRECTION('ref_axis',(1.,-1.66002235985352E-16,0.));
#279=DIRECTION('center_axis',(1.55330695394579E-16,1.,0.));
#280=DIRECTION('ref_axis',(-1.,1.74838271594513E-16,0.));
#281=DIRECTION('center_axis',(-1.55330695394579E-16,-1.,0.));
#282=DIRECTION('ref_axis',(1.,-1.74838271594513E-16,0.));
#283=DIRECTION('center_axis',(1.55330695394579E-16,1.,0.));
#284=DIRECTION('ref_axis',(-1.,1.74838271594513E-16,0.));
#285=DIRECTION('center_axis',(1.55330695394579E-16,1.,0.));
#286=DIRECTION('ref_axis',(1.,-1.74838271594513E-16,0.));
#287=DIRECTION('center_axis',(-1.55330695394579E-16,-1.,0.));
#288=DIRECTION('ref_axis',(1.,-1.66002235985352E-16,0.));
#289=DIRECTION('center_axis',(-1.55330695394579E-16,-1.,0.));
#290=DIRECTION('ref_axis',(1.,-1.55330695394579E-16,0.));
#291=DIRECTION('center_axis',(1.55330695394579E-16,1.,0.));
#292=DIRECTION('ref_axis',(0.,0.,1.));
#293=DIRECTION('center_axis',(1.55330695394579E-16,1.,0.));
#294=DIRECTION('ref_axis',(0.,0.,1.));
#295=DIRECTION('center_axis',(1.55330695394579E-16,1.,0.));
#296=DIRECTION('ref_axis',(-1.,1.74838271594513E-16,0.));
#297=DIRECTION('center_axis',(1.55330695394579E-16,1.,0.));
#298=DIRECTION('ref_axis',(0.,0.,1.));
#299=DIRECTION('center_axis',(1.55330695394579E-16,1.,0.));
#300=DIRECTION('ref_axis',(-1.,1.74838271594513E-16,0.));
#301=DIRECTION('center_axis',(1.55330695394579E-16,1.,0.));
#302=DIRECTION('ref_axis',(-1.,1.74838271594513E-16,0.));
#303=DIRECTION('center_axis',(1.55330695394579E-16,1.,0.));
#304=DIRECTION('ref_axis',(-1.,1.40998606124607E-16,0.));
#305=DIRECTION('center_axis',(0.,1.,0.));
#306=DIRECTION('ref_axis',(0.0355722956131705,0.,0.999367105614753));
#307=DIRECTION('center_axis',(0.,-1.,0.));
#308=DIRECTION('ref_axis',(-1.,1.74838271594513E-16,0.));
#309=DIRECTION('center_axis',(0.,1.,0.));
#310=DIRECTION('ref_axis',(0.0355722956131705,0.,0.999367105614753));
#311=DIRECTION('center_axis',(0.,-1.,0.));
#312=DIRECTION('ref_axis',(-0.603191437753434,0.,-0.797596445215841));
#313=DIRECTION('center_axis',(0.,1.,0.));
#314=DIRECTION('ref_axis',(-0.603191437753434,0.,-0.797596445215841));
#315=DIRECTION('center_axis',(0.,-1.,0.));
#316=DIRECTION('ref_axis',(-0.603191437753434,0.,-0.797596445215841));
#317=DIRECTION('center_axis',(0.,-1.,0.));
#318=DIRECTION('ref_axis',(-0.603191437753434,0.,-0.797596445215841));
#319=CARTESIAN_POINT('',(0.,0.,0.));
#320=CARTESIAN_POINT('Origin',(-0.62375,0.0100000000000001,0.));
#321=CARTESIAN_POINT('',(-0.62,0.0100000000000001,0.));
#322=CARTESIAN_POINT('Origin',(1.31128703695885E-16,0.0100000000000001,
0.));
#323=CARTESIAN_POINT('',(-0.0177861478065851,0.01,-0.499683552807377));
#324=CARTESIAN_POINT('Origin',(1.15125613000384E-16,0.01,0.));
#325=CARTESIAN_POINT('Origin',(-0.62375,0.11,0.));
#326=CARTESIAN_POINT('',(-0.6275,0.11,0.));
#327=CARTESIAN_POINT('Origin',(4.56968212288662E-17,0.11,0.));
#328=CARTESIAN_POINT('',(-0.62,0.11,0.));
#329=CARTESIAN_POINT('Origin',(1.31128703695885E-16,0.11,0.));
#330=CARTESIAN_POINT('Origin',(1.31128703695885E-16,0.0600000000000001,
0.));
#331=CARTESIAN_POINT('Origin',(-0.62375,0.36,0.));
#332=CARTESIAN_POINT('',(-0.6275,0.36,0.));
#333=CARTESIAN_POINT('Origin',(8.45294950775109E-17,0.36,0.));
#334=CARTESIAN_POINT('',(-0.62,0.36,0.));
#335=CARTESIAN_POINT('Origin',(1.31128703695885E-16,0.36,0.));
#336=CARTESIAN_POINT('Origin',(1.31128703695885E-16,0.395,0.));
#337=CARTESIAN_POINT('',(-0.62,0.43,0.));
#338=CARTESIAN_POINT('Origin',(9.54026437551315E-17,0.43,0.));
#339=CARTESIAN_POINT('Origin',(1.07168943931271E-16,0.50575,0.));
#340=CARTESIAN_POINT('',(-0.1035,0.495,0.));
#341=CARTESIAN_POINT('Origin',(1.05499138955779E-16,0.495,0.));
#342=CARTESIAN_POINT('',(-0.125,0.5165,-1.53080849893419E-17));
#343=CARTESIAN_POINT('Origin',(1.08838748906763E-16,0.5165,0.));
#344=CARTESIAN_POINT('Origin',(1.18313921325832E-16,0.5775,0.));
#345=CARTESIAN_POINT('',(-0.125,0.6385,1.53080849893419E-17));
#346=CARTESIAN_POINT('Origin',(1.27789093744901E-16,0.6385,0.));
#347=CARTESIAN_POINT('Origin',(1.29458898720393E-16,0.64925,0.));
#348=CARTESIAN_POINT('',(-0.1035,0.66,-1.26750943711751E-17));
#349=CARTESIAN_POINT('Origin',(1.31128703695885E-16,0.66,0.));
#350=CARTESIAN_POINT('Origin',(-0.0624999999999999,0.66,0.));
#351=CARTESIAN_POINT('Origin',(1.31128703695885E-16,0.43,0.));
#352=CARTESIAN_POINT('',(-0.59,0.46,0.));
#353=CARTESIAN_POINT('Origin',(1.00062564616969E-16,0.46,0.));
#354=CARTESIAN_POINT('Origin',(-0.34675,0.46,0.));
#355=CARTESIAN_POINT('',(-0.1035,0.46,0.));
#356=CARTESIAN_POINT('Origin',(1.00062564616969E-16,0.46,0.));
#357=CARTESIAN_POINT('Origin',(1.02780851786374E-16,0.4775,0.));
#358=CARTESIAN_POINT('Origin',(3.79302864591373E-17,0.06,0.));
#359=CARTESIAN_POINT('Origin',(1.15125613000384E-16,0.01,0.));
#360=CARTESIAN_POINT('',(-0.455,0.0100000000000001,0.));
#361=CARTESIAN_POINT('Origin',(3.01637516894084E-17,0.01,0.));
#362=CARTESIAN_POINT('Origin',(1.15125613000384E-16,0.01,0.));
#363=CARTESIAN_POINT('',(0.271436146989045,0.01,0.358918400347128));
#364=CARTESIAN_POINT('Origin',(0.,0.01,0.));
#365=CARTESIAN_POINT('Origin',(0.,0.,0.));
#366=CARTESIAN_POINT('',(0.271436146989045,0.,0.358918400347128));
#367=CARTESIAN_POINT('Origin',(0.,0.,0.));
#368=CARTESIAN_POINT('Origin',(0.,0.,0.));
#369=UNCERTAINTY_MEASURE_WITH_UNIT(LENGTH_MEASURE(0.000393700787401575),
#373,'DISTANCE_ACCURACY_VALUE',
'Maximum model space distance between geometric entities at asserted c
onnectivities');
#370=UNCERTAINTY_MEASURE_WITH_UNIT(LENGTH_MEASURE(1.E-6),#374,
'DISTANCE_ACCURACY_VALUE',
'Maximum model space distance between geometric entities at asserted c
onnectivities');
#371=(
GEOMETRIC_REPRESENTATION_CONTEXT(3)
GLOBAL_UNCERTAINTY_ASSIGNED_CONTEXT((#369))
GLOBAL_UNIT_ASSIGNED_CONTEXT((#373,#379,#376))
REPRESENTATION_CONTEXT('','3D')
);
#372=(
GEOMETRIC_REPRESENTATION_CONTEXT(3)
GLOBAL_UNCERTAINTY_ASSIGNED_CONTEXT((#370))
GLOBAL_UNIT_ASSIGNED_CONTEXT((#374,#379,#376))
REPRESENTATION_CONTEXT('','3D')
);
#373=(
CONVERSION_BASED_UNIT('__CONSTANT UNIT inch',#375)
LENGTH_UNIT()
NAMED_UNIT(#378)
);
#374=(
LENGTH_UNIT()
NAMED_UNIT(*)
SI_UNIT(.MILLI.,.METRE.)
);
#375=LENGTH_MEASURE_WITH_UNIT(LENGTH_MEASURE(25.4),#374);
#376=(
NAMED_UNIT(*)
SI_UNIT($,.STERADIAN.)
SOLID_ANGLE_UNIT()
);
#377=DIMENSIONAL_EXPONENTS(0.,0.,0.,0.,0.,0.,0.);
#378=DIMENSIONAL_EXPONENTS(1.,0.,0.,0.,0.,0.,0.);
#379=(
CONVERSION_BASED_UNIT('degree',#381)
NAMED_UNIT(#377)
PLANE_ANGLE_UNIT()
);
#380=(
NAMED_UNIT(*)
PLANE_ANGLE_UNIT()
SI_UNIT($,.RADIAN.)
);
#381=PLANE_ANGLE_MEASURE_WITH_UNIT(PLANE_ANGLE_MEASURE(0.01745329252),#380);
#382=SHAPE_DEFINITION_REPRESENTATION(#383,#384);
#383=PRODUCT_DEFINITION_SHAPE('',$,#386);
#384=SHAPE_REPRESENTATION('',(#217),#371);
#385=PRODUCT_DEFINITION_CONTEXT('part definition',#390,'design');
#386=PRODUCT_DEFINITION('MH104-1B','MH104-1B',#387,#385);
#387=PRODUCT_DEFINITION_FORMATION('',$,#392);
#388=PRODUCT_RELATED_PRODUCT_CATEGORY('MH104-1B','MH104-1B',(#392));
#389=APPLICATION_PROTOCOL_DEFINITION('international standard',
'automotive_design',2009,#390);
#390=APPLICATION_CONTEXT(
'Core Data for Automotive Mechanical Design Process');
#391=PRODUCT_CONTEXT('part definition',#390,'mechanical');
#392=PRODUCT('MH104-1B','MH104-1B',$,(#391));
#393=PRESENTATION_STYLE_ASSIGNMENT((#397));
#394=PRESENTATION_STYLE_ASSIGNMENT((#398));
#395=PRESENTATION_STYLE_ASSIGNMENT((#399));
#396=PRESENTATION_STYLE_ASSIGNMENT((#400));
#397=SURFACE_STYLE_USAGE(.BOTH.,#401);
#398=SURFACE_STYLE_USAGE(.BOTH.,#402);
#399=SURFACE_STYLE_USAGE(.BOTH.,#403);
#400=SURFACE_STYLE_USAGE(.BOTH.,#404);
#401=SURFACE_SIDE_STYLE('',(#405));
#402=SURFACE_SIDE_STYLE('',(#406));
#403=SURFACE_SIDE_STYLE('',(#407));
#404=SURFACE_SIDE_STYLE('',(#408));
#405=SURFACE_STYLE_FILL_AREA(#409);
#406=SURFACE_STYLE_FILL_AREA(#410);
#407=SURFACE_STYLE_FILL_AREA(#411);
#408=SURFACE_STYLE_FILL_AREA(#412);
#409=FILL_AREA_STYLE('',(#413));
#410=FILL_AREA_STYLE('',(#414));
#411=FILL_AREA_STYLE('',(#415));
#412=FILL_AREA_STYLE('',(#416));
#413=FILL_AREA_STYLE_COLOUR('',#417);
#414=FILL_AREA_STYLE_COLOUR('',#418);
#415=FILL_AREA_STYLE_COLOUR('',#419);
#416=FILL_AREA_STYLE_COLOUR('',#420);
#417=COLOUR_RGB('',0.294117647058824,0.301960784313725,0.294117647058824);
#418=COLOUR_RGB('',0.956862745098039,0.956862745098039,0.956862745098039);
#419=COLOUR_RGB('',0.541176470588235,0.541176470588235,0.545098039215686);
#420=COLOUR_RGB('',0.,0.,0.);
ENDSEC;
END-ISO-10303-21;
