ISO-10303-21;
HEADER;
/* Generated by software containing ST-Developer
 * from STEP Tools, Inc. (www.steptools.com) 
 */

FILE_DESCRIPTION(
/* description */ (
'MAGNETIC BASE FOR FLAT SURFACES, 1" DIAM, 1/4-28 INTEGRAL MOUNTING ST
UD'),
/* implementation_level */ '2;1');

FILE_NAME(
/* name */ 
'F:\\Engineering, Marketing\\Product Drawings\\STEP FILES\\MISC\\MH103
-1B.stp',
/* time_stamp */ '2017-05-05T16:58:02-04:00',
/* author */ ('aneininger'),
/* organization */ (''),
/* preprocessor_version */ 'ST-DEVELOPER v16.5',
/* originating_system */ 'Autodesk Inventor 2017',
/* authorisation */ '');

FILE_SCHEMA (('AUTOMOTIVE_DESIGN { 1 0 10303 214 3 1 1 }'));
ENDSEC;

DATA;
#10=MECHANICAL_DESIGN_GEOMETRIC_PRESENTATION_REPRESENTATION('',(#170,#171,
#173,#172,#174,#175,#176,#177,#178,#183,#179,#180,#181,#182,#184,#185,#186),
#361);
#11=SHAPE_REPRESENTATION_RELATIONSHIP('SRR','None',#373,#12);
#12=ADVANCED_BREP_SHAPE_REPRESENTATION('',(#13),#360);
#13=MANIFOLD_SOLID_BREP('Solid4',#203);
#14=TOROIDAL_SURFACE('',#229,0.465,0.03);
#15=CONICAL_SURFACE('',#221,0.11425,45.);
#16=CONICAL_SURFACE('',#226,0.11425,45.);
#17=CYLINDRICAL_SURFACE('',#214,0.495);
#18=CYLINDRICAL_SURFACE('',#219,0.495);
#19=CYLINDRICAL_SURFACE('',#224,0.125);
#20=CYLINDRICAL_SURFACE('',#233,0.1035);
#21=CYLINDRICAL_SURFACE('',#237,0.5025);
#22=CYLINDRICAL_SURFACE('',#240,0.45);
#23=FACE_BOUND('',#54,.T.);
#24=FACE_BOUND('',#56,.T.);
#25=FACE_BOUND('',#58,.T.);
#26=FACE_BOUND('',#60,.T.);
#27=FACE_BOUND('',#62,.T.);
#28=FACE_BOUND('',#64,.T.);
#29=FACE_BOUND('',#66,.T.);
#30=FACE_BOUND('',#69,.T.);
#31=FACE_BOUND('',#71,.T.);
#32=FACE_BOUND('',#73,.T.);
#33=FACE_BOUND('',#75,.T.);
#34=FACE_BOUND('',#77,.T.);
#35=FACE_BOUND('',#79,.T.);
#36=FACE_BOUND('',#81,.T.);
#37=FACE_OUTER_BOUND('',#53,.T.);
#38=FACE_OUTER_BOUND('',#55,.T.);
#39=FACE_OUTER_BOUND('',#57,.T.);
#40=FACE_OUTER_BOUND('',#59,.T.);
#41=FACE_OUTER_BOUND('',#61,.T.);
#42=FACE_OUTER_BOUND('',#63,.T.);
#43=FACE_OUTER_BOUND('',#65,.T.);
#44=FACE_OUTER_BOUND('',#67,.T.);
#45=FACE_OUTER_BOUND('',#68,.T.);
#46=FACE_OUTER_BOUND('',#70,.T.);
#47=FACE_OUTER_BOUND('',#72,.T.);
#48=FACE_OUTER_BOUND('',#74,.T.);
#49=FACE_OUTER_BOUND('',#76,.T.);
#50=FACE_OUTER_BOUND('',#78,.T.);
#51=FACE_OUTER_BOUND('',#80,.T.);
#52=FACE_OUTER_BOUND('',#82,.T.);
#53=EDGE_LOOP('',(#131));
#54=EDGE_LOOP('',(#132));
#55=EDGE_LOOP('',(#133));
#56=EDGE_LOOP('',(#134));
#57=EDGE_LOOP('',(#135));
#58=EDGE_LOOP('',(#136));
#59=EDGE_LOOP('',(#137));
#60=EDGE_LOOP('',(#138));
#61=EDGE_LOOP('',(#139));
#62=EDGE_LOOP('',(#140));
#63=EDGE_LOOP('',(#141));
#64=EDGE_LOOP('',(#142));
#65=EDGE_LOOP('',(#143));
#66=EDGE_LOOP('',(#144));
#67=EDGE_LOOP('',(#145));
#68=EDGE_LOOP('',(#146));
#69=EDGE_LOOP('',(#147));
#70=EDGE_LOOP('',(#148));
#71=EDGE_LOOP('',(#149));
#72=EDGE_LOOP('',(#150));
#73=EDGE_LOOP('',(#151));
#74=EDGE_LOOP('',(#152));
#75=EDGE_LOOP('',(#153,#154));
#76=EDGE_LOOP('',(#155));
#77=EDGE_LOOP('',(#156));
#78=EDGE_LOOP('',(#157,#158));
#79=EDGE_LOOP('',(#159));
#80=EDGE_LOOP('',(#160));
#81=EDGE_LOOP('',(#161));
#82=EDGE_LOOP('',(#162));
#83=CIRCLE('',#212,0.5025);
#84=CIRCLE('',#213,0.495);
#85=CIRCLE('',#215,0.495);
#86=CIRCLE('',#217,0.5025);
#87=CIRCLE('',#218,0.495);
#88=CIRCLE('',#220,0.495);
#89=CIRCLE('',#222,0.1035);
#90=CIRCLE('',#223,0.125);
#91=CIRCLE('',#225,0.125);
#92=CIRCLE('',#227,0.1035);
#93=CIRCLE('',#230,0.465);
#94=CIRCLE('',#232,0.1035);
#95=CIRCLE('',#235,0.455);
#96=CIRCLE('',#236,0.455);
#97=CIRCLE('',#239,0.45);
#98=CIRCLE('',#241,0.45);
#99=VERTEX_POINT('',#311);
#100=VERTEX_POINT('',#313);
#101=VERTEX_POINT('',#316);
#102=VERTEX_POINT('',#319);
#103=VERTEX_POINT('',#321);
#104=VERTEX_POINT('',#324);
#105=VERTEX_POINT('',#327);
#106=VERTEX_POINT('',#329);
#107=VERTEX_POINT('',#332);
#108=VERTEX_POINT('',#335);
#109=VERTEX_POINT('',#339);
#110=VERTEX_POINT('',#342);
#111=VERTEX_POINT('',#346);
#112=VERTEX_POINT('',#347);
#113=VERTEX_POINT('',#352);
#114=VERTEX_POINT('',#355);
#115=EDGE_CURVE('',#99,#99,#83,.T.);
#116=EDGE_CURVE('',#100,#100,#84,.T.);
#117=EDGE_CURVE('',#101,#101,#85,.T.);
#118=EDGE_CURVE('',#102,#102,#86,.T.);
#119=EDGE_CURVE('',#103,#103,#87,.T.);
#120=EDGE_CURVE('',#104,#104,#88,.T.);
#121=EDGE_CURVE('',#105,#105,#89,.T.);
#122=EDGE_CURVE('',#106,#106,#90,.T.);
#123=EDGE_CURVE('',#107,#107,#91,.T.);
#124=EDGE_CURVE('',#108,#108,#92,.T.);
#125=EDGE_CURVE('',#109,#109,#93,.T.);
#126=EDGE_CURVE('',#110,#110,#94,.T.);
#127=EDGE_CURVE('',#111,#112,#95,.T.);
#128=EDGE_CURVE('',#112,#111,#96,.T.);
#129=EDGE_CURVE('',#113,#113,#97,.T.);
#130=EDGE_CURVE('',#114,#114,#98,.T.);
#131=ORIENTED_EDGE('',*,*,#115,.F.);
#132=ORIENTED_EDGE('',*,*,#116,.F.);
#133=ORIENTED_EDGE('',*,*,#116,.T.);
#134=ORIENTED_EDGE('',*,*,#117,.F.);
#135=ORIENTED_EDGE('',*,*,#118,.F.);
#136=ORIENTED_EDGE('',*,*,#119,.T.);
#137=ORIENTED_EDGE('',*,*,#120,.F.);
#138=ORIENTED_EDGE('',*,*,#119,.F.);
#139=ORIENTED_EDGE('',*,*,#121,.T.);
#140=ORIENTED_EDGE('',*,*,#122,.T.);
#141=ORIENTED_EDGE('',*,*,#123,.F.);
#142=ORIENTED_EDGE('',*,*,#122,.F.);
#143=ORIENTED_EDGE('',*,*,#123,.T.);
#144=ORIENTED_EDGE('',*,*,#124,.T.);
#145=ORIENTED_EDGE('',*,*,#124,.F.);
#146=ORIENTED_EDGE('',*,*,#125,.F.);
#147=ORIENTED_EDGE('',*,*,#120,.T.);
#148=ORIENTED_EDGE('',*,*,#125,.T.);
#149=ORIENTED_EDGE('',*,*,#126,.F.);
#150=ORIENTED_EDGE('',*,*,#121,.F.);
#151=ORIENTED_EDGE('',*,*,#126,.T.);
#152=ORIENTED_EDGE('',*,*,#117,.T.);
#153=ORIENTED_EDGE('',*,*,#127,.F.);
#154=ORIENTED_EDGE('',*,*,#128,.F.);
#155=ORIENTED_EDGE('',*,*,#115,.T.);
#156=ORIENTED_EDGE('',*,*,#118,.T.);
#157=ORIENTED_EDGE('',*,*,#127,.T.);
#158=ORIENTED_EDGE('',*,*,#128,.T.);
#159=ORIENTED_EDGE('',*,*,#129,.F.);
#160=ORIENTED_EDGE('',*,*,#129,.T.);
#161=ORIENTED_EDGE('',*,*,#130,.F.);
#162=ORIENTED_EDGE('',*,*,#130,.T.);
#163=PLANE('',#211);
#164=PLANE('',#216);
#165=PLANE('',#228);
#166=PLANE('',#231);
#167=PLANE('',#234);
#168=PLANE('',#238);
#169=PLANE('',#242);
#170=STYLED_ITEM('',(#383),#187);
#171=STYLED_ITEM('',(#383),#188);
#172=STYLED_ITEM('',(#383),#189);
#173=STYLED_ITEM('',(#383),#190);
#174=STYLED_ITEM('',(#383),#191);
#175=STYLED_ITEM('',(#383),#192);
#176=STYLED_ITEM('',(#383),#193);
#177=STYLED_ITEM('',(#383),#194);
#178=STYLED_ITEM('',(#383),#195);
#179=STYLED_ITEM('',(#383),#196);
#180=STYLED_ITEM('',(#383),#197);
#181=STYLED_ITEM('',(#383),#198);
#182=STYLED_ITEM('',(#384),#199);
#183=STYLED_ITEM('',(#385),#200);
#184=STYLED_ITEM('',(#383),#201);
#185=STYLED_ITEM('',(#383),#202);
#186=STYLED_ITEM('',(#382),#13);
#187=ADVANCED_FACE('',(#37,#23),#163,.F.);
#188=ADVANCED_FACE('',(#38,#24),#17,.T.);
#189=ADVANCED_FACE('',(#39,#25),#164,.F.);
#190=ADVANCED_FACE('',(#40,#26),#18,.T.);
#191=ADVANCED_FACE('',(#41,#27),#15,.T.);
#192=ADVANCED_FACE('',(#42,#28),#19,.T.);
#193=ADVANCED_FACE('',(#43,#29),#16,.T.);
#194=ADVANCED_FACE('',(#44),#165,.T.);
#195=ADVANCED_FACE('',(#45,#30),#14,.T.);
#196=ADVANCED_FACE('',(#46,#31),#166,.T.);
#197=ADVANCED_FACE('',(#47,#32),#20,.T.);
#198=ADVANCED_FACE('',(#48,#33),#167,.T.);
#199=ADVANCED_FACE('',(#49,#34),#21,.T.);
#200=ADVANCED_FACE('',(#50,#35),#168,.T.);
#201=ADVANCED_FACE('',(#51,#36),#22,.T.);
#202=ADVANCED_FACE('',(#52),#169,.T.);
#203=CLOSED_SHELL('',(#187,#188,#189,#190,#191,#192,#193,#194,#195,#196,
#197,#198,#199,#200,#201,#202));
#204=DATE_TIME_ROLE('creation_date');
#205=APPLIED_DATE_AND_TIME_ASSIGNMENT(#206,#204,(#375));
#206=DATE_AND_TIME(#207,#208);
#207=CALENDAR_DATE(2010,8,6);
#208=LOCAL_TIME(13,5,45.,#209);
#209=COORDINATED_UNIVERSAL_TIME_OFFSET(0,0,.BEHIND.);
#210=AXIS2_PLACEMENT_3D('placement',#309,#243,#244);
#211=AXIS2_PLACEMENT_3D('',#310,#245,#246);
#212=AXIS2_PLACEMENT_3D('',#312,#247,#248);
#213=AXIS2_PLACEMENT_3D('',#314,#249,#250);
#214=AXIS2_PLACEMENT_3D('',#315,#251,#252);
#215=AXIS2_PLACEMENT_3D('',#317,#253,#254);
#216=AXIS2_PLACEMENT_3D('',#318,#255,#256);
#217=AXIS2_PLACEMENT_3D('',#320,#257,#258);
#218=AXIS2_PLACEMENT_3D('',#322,#259,#260);
#219=AXIS2_PLACEMENT_3D('',#323,#261,#262);
#220=AXIS2_PLACEMENT_3D('',#325,#263,#264);
#221=AXIS2_PLACEMENT_3D('',#326,#265,#266);
#222=AXIS2_PLACEMENT_3D('',#328,#267,#268);
#223=AXIS2_PLACEMENT_3D('',#330,#269,#270);
#224=AXIS2_PLACEMENT_3D('',#331,#271,#272);
#225=AXIS2_PLACEMENT_3D('',#333,#273,#274);
#226=AXIS2_PLACEMENT_3D('',#334,#275,#276);
#227=AXIS2_PLACEMENT_3D('',#336,#277,#278);
#228=AXIS2_PLACEMENT_3D('',#337,#279,#280);
#229=AXIS2_PLACEMENT_3D('',#338,#281,#282);
#230=AXIS2_PLACEMENT_3D('',#340,#283,#284);
#231=AXIS2_PLACEMENT_3D('',#341,#285,#286);
#232=AXIS2_PLACEMENT_3D('',#343,#287,#288);
#233=AXIS2_PLACEMENT_3D('',#344,#289,#290);
#234=AXIS2_PLACEMENT_3D('',#345,#291,#292);
#235=AXIS2_PLACEMENT_3D('',#348,#293,#294);
#236=AXIS2_PLACEMENT_3D('',#349,#295,#296);
#237=AXIS2_PLACEMENT_3D('',#350,#297,#298);
#238=AXIS2_PLACEMENT_3D('',#351,#299,#300);
#239=AXIS2_PLACEMENT_3D('',#353,#301,#302);
#240=AXIS2_PLACEMENT_3D('',#354,#303,#304);
#241=AXIS2_PLACEMENT_3D('',#356,#305,#306);
#242=AXIS2_PLACEMENT_3D('',#357,#307,#308);
#243=DIRECTION('axis',(0.,0.,1.));
#244=DIRECTION('refdir',(1.,0.,0.));
#245=DIRECTION('center_axis',(0.,1.,0.));
#246=DIRECTION('ref_axis',(0.,0.,1.));
#247=DIRECTION('center_axis',(0.,1.,0.));
#248=DIRECTION('ref_axis',(-1.,1.76604314741932E-16,0.));
#249=DIRECTION('center_axis',(0.,-1.,0.));
#250=DIRECTION('ref_axis',(-1.,0.,0.));
#251=DIRECTION('center_axis',(0.,-1.,0.));
#252=DIRECTION('ref_axis',(-1.,0.,0.));
#253=DIRECTION('center_axis',(-1.55330695394579E-16,-1.,0.));
#254=DIRECTION('ref_axis',(-1.,0.,0.));
#255=DIRECTION('center_axis',(0.,-1.,0.));
#256=DIRECTION('ref_axis',(0.,0.,-1.));
#257=DIRECTION('center_axis',(0.,-1.,0.));
#258=DIRECTION('ref_axis',(-1.,1.76604314741932E-16,0.));
#259=DIRECTION('center_axis',(0.,-1.,0.));
#260=DIRECTION('ref_axis',(-1.,0.,0.));
#261=DIRECTION('center_axis',(0.,-1.,0.));
#262=DIRECTION('ref_axis',(-1.,0.,0.));
#263=DIRECTION('center_axis',(1.55330695394579E-16,1.,0.));
#264=DIRECTION('ref_axis',(-1.,1.54525895598409E-16,0.));
#265=DIRECTION('center_axis',(1.55330695394579E-16,1.,0.));
#266=DIRECTION('ref_axis',(1.,-1.66002235985352E-16,0.));
#267=DIRECTION('center_axis',(1.55330695394579E-16,1.,0.));
#268=DIRECTION('ref_axis',(-1.,1.74838271594513E-16,0.));
#269=DIRECTION('center_axis',(-1.55330695394579E-16,-1.,0.));
#270=DIRECTION('ref_axis',(1.,-1.74838271594513E-16,0.));
#271=DIRECTION('center_axis',(1.55330695394579E-16,1.,0.));
#272=DIRECTION('ref_axis',(-1.,1.74838271594513E-16,0.));
#273=DIRECTION('center_axis',(1.55330695394579E-16,1.,0.));
#274=DIRECTION('ref_axis',(1.,-1.74838271594513E-16,0.));
#275=DIRECTION('center_axis',(-1.55330695394579E-16,-1.,0.));
#276=DIRECTION('ref_axis',(1.,-1.66002235985352E-16,0.));
#277=DIRECTION('center_axis',(-1.55330695394579E-16,-1.,0.));
#278=DIRECTION('ref_axis',(1.,-1.55330695394579E-16,0.));
#279=DIRECTION('center_axis',(1.55330695394579E-16,1.,0.));
#280=DIRECTION('ref_axis',(0.,0.,1.));
#281=DIRECTION('center_axis',(1.55330695394579E-16,1.,0.));
#282=DIRECTION('ref_axis',(0.,0.,1.));
#283=DIRECTION('center_axis',(1.55330695394579E-16,1.,0.));
#284=DIRECTION('ref_axis',(-1.,1.74838271594513E-16,0.));
#285=DIRECTION('center_axis',(1.55330695394579E-16,1.,0.));
#286=DIRECTION('ref_axis',(0.,0.,1.));
#287=DIRECTION('center_axis',(1.55330695394579E-16,1.,0.));
#288=DIRECTION('ref_axis',(-1.,1.74838271594513E-16,0.));
#289=DIRECTION('center_axis',(1.55330695394579E-16,1.,0.));
#290=DIRECTION('ref_axis',(-1.,1.74838271594513E-16,0.));
#291=DIRECTION('center_axis',(-1.55330695394579E-16,-1.,0.));
#292=DIRECTION('ref_axis',(0.,0.,-1.));
#293=DIRECTION('center_axis',(-3.64589424113768E-16,-1.,6.5468227730609E-16));
#294=DIRECTION('ref_axis',(0.316744647389255,-9.27313565610138E-16,-0.948510847776796));
#295=DIRECTION('center_axis',(-3.64589424113768E-16,-1.,6.5468227730609E-16));
#296=DIRECTION('ref_axis',(0.316744647389255,-9.27313565610138E-16,-0.948510847776796));
#297=DIRECTION('center_axis',(1.55330695394579E-16,1.,0.));
#298=DIRECTION('ref_axis',(-1.,1.76604314741932E-16,0.));
#299=DIRECTION('center_axis',(-3.64589424113768E-16,-1.,6.5468227730609E-16));
#300=DIRECTION('ref_axis',(0.853856192179772,-7.04991620636974E-16,-0.520508984625875));
#301=DIRECTION('center_axis',(-3.64589424113768E-16,-1.,6.5468227730609E-16));
#302=DIRECTION('ref_axis',(-1.,-1.74838271594513E-16,-1.7163987518568E-16));
#303=DIRECTION('center_axis',(-1.74838271594513E-16,1.,3.63492389330251E-31));
#304=DIRECTION('ref_axis',(-1.,-1.74838271594513E-16,-1.7163987518568E-16));
#305=DIRECTION('center_axis',(1.74838271594513E-16,-1.,-3.63492389330251E-31));
#306=DIRECTION('ref_axis',(-1.,-1.74838271594513E-16,-1.7163987518568E-16));
#307=DIRECTION('center_axis',(1.74838271594513E-16,-1.,-3.63492389330251E-31));
#308=DIRECTION('ref_axis',(-1.,-1.40998324127395E-16,-1.7163987518568E-16));
#309=CARTESIAN_POINT('',(0.,0.,0.));
#310=CARTESIAN_POINT('Origin',(-0.49875,-0.27,0.));
#311=CARTESIAN_POINT('',(-0.5025,-0.27,0.));
#312=CARTESIAN_POINT('Origin',(-8.54318824670184E-17,-0.27,0.));
#313=CARTESIAN_POINT('',(-0.495,-0.27,0.));
#314=CARTESIAN_POINT('Origin',(0.,-0.27,0.));
#315=CARTESIAN_POINT('Origin',(0.,-0.32,0.));
#316=CARTESIAN_POINT('',(-0.495,-0.37,0.));
#317=CARTESIAN_POINT('Origin',(0.,-0.37,0.));
#318=CARTESIAN_POINT('Origin',(-0.49875,-0.02,0.));
#319=CARTESIAN_POINT('',(-0.5025,-0.02,0.));
#320=CARTESIAN_POINT('Origin',(-4.65992086183737E-17,-0.0200000000000001,
0.));
#321=CARTESIAN_POINT('',(-0.495,-0.02,0.));
#322=CARTESIAN_POINT('Origin',(0.,-0.02,0.));
#323=CARTESIAN_POINT('Origin',(0.,0.015,0.));
#324=CARTESIAN_POINT('',(-0.495,0.05,0.));
#325=CARTESIAN_POINT('Origin',(-3.57260599407531E-17,0.0499999999999999,
0.));
#326=CARTESIAN_POINT('Origin',(-2.39597597646138E-17,0.12575,0.));
#327=CARTESIAN_POINT('',(-0.1035,0.115,0.));
#328=CARTESIAN_POINT('Origin',(-2.56295647401055E-17,0.115,0.));
#329=CARTESIAN_POINT('',(-0.125,0.1365,-1.53080849893419E-17));
#330=CARTESIAN_POINT('Origin',(-2.22899547891221E-17,0.1365,0.));
#331=CARTESIAN_POINT('Origin',(-1.28147823700528E-17,0.1975,0.));
#332=CARTESIAN_POINT('',(-0.125,0.2585,1.53080849893419E-17));
#333=CARTESIAN_POINT('Origin',(-3.33960995098344E-18,0.2585,0.));
#334=CARTESIAN_POINT('Origin',(-1.66980497549172E-18,0.26925,0.));
#335=CARTESIAN_POINT('',(-0.1035,0.28,-1.26750943711751E-17));
#336=CARTESIAN_POINT('Origin',(-2.42636843387368E-33,0.28,0.));
#337=CARTESIAN_POINT('Origin',(-0.0625,0.28,0.));
#338=CARTESIAN_POINT('Origin',(0.,0.0499999999999999,0.));
#339=CARTESIAN_POINT('',(-0.465,0.08,0.));
#340=CARTESIAN_POINT('Origin',(-3.10661390789158E-17,0.0799999999999999,
0.));
#341=CARTESIAN_POINT('Origin',(-0.28425,0.08,0.));
#342=CARTESIAN_POINT('',(-0.1035,0.08,0.));
#343=CARTESIAN_POINT('Origin',(-3.10661390789158E-17,0.08,0.));
#344=CARTESIAN_POINT('Origin',(-2.83478519095106E-17,0.0975,0.));
#345=CARTESIAN_POINT('Origin',(-0.49875,-0.37,0.));
#346=CARTESIAN_POINT('',(0.144118814562112,-0.370000000000002,-0.431572435738442));
#347=CARTESIAN_POINT('',(-0.455,-0.37,0.));
#348=CARTESIAN_POINT('Origin',(5.48112868978083E-16,-0.37,1.62388577739721E-16));
#349=CARTESIAN_POINT('Origin',(5.48112868978083E-16,-0.37,1.62388577739721E-16));
#350=CARTESIAN_POINT('Origin',(-9.31984172367473E-17,-0.32,0.));
#351=CARTESIAN_POINT('Origin',(4.28514116382748E-17,-0.37,-1.18176154035081E-16));
#352=CARTESIAN_POINT('',(-0.0534451869963414,-0.37,0.446814963924583));
#353=CARTESIAN_POINT('Origin',(-3.47808500639226E-16,-0.37,-1.74838271594513E-16));
#354=CARTESIAN_POINT('Origin',(-3.46060117923281E-16,-0.38,-1.74838271594513E-16));
#355=CARTESIAN_POINT('',(0.45,-0.38,-1.52709433722588E-16));
#356=CARTESIAN_POINT('Origin',(-3.46060117923281E-16,-0.38,-1.74838271594513E-16));
#357=CARTESIAN_POINT('Origin',(-3.46060117923281E-16,-0.38,-1.74838271594513E-16));
#358=UNCERTAINTY_MEASURE_WITH_UNIT(LENGTH_MEASURE(0.000393700787401575),
#362,'DISTANCE_ACCURACY_VALUE',
'Maximum model space distance between geometric entities at asserted c
onnectivities');
#359=UNCERTAINTY_MEASURE_WITH_UNIT(LENGTH_MEASURE(1.E-6),#363,
'DISTANCE_ACCURACY_VALUE',
'Maximum model space distance between geometric entities at asserted c
onnectivities');
#360=(
GEOMETRIC_REPRESENTATION_CONTEXT(3)
GLOBAL_UNCERTAINTY_ASSIGNED_CONTEXT((#358))
GLOBAL_UNIT_ASSIGNED_CONTEXT((#362,#368,#365))
REPRESENTATION_CONTEXT('','3D')
);
#361=(
GEOMETRIC_REPRESENTATION_CONTEXT(3)
GLOBAL_UNCERTAINTY_ASSIGNED_CONTEXT((#359))
GLOBAL_UNIT_ASSIGNED_CONTEXT((#363,#368,#365))
REPRESENTATION_CONTEXT('','3D')
);
#362=(
CONVERSION_BASED_UNIT('__CONSTANT UNIT inch',#364)
LENGTH_UNIT()
NAMED_UNIT(#367)
);
#363=(
LENGTH_UNIT()
NAMED_UNIT(*)
SI_UNIT(.MILLI.,.METRE.)
);
#364=LENGTH_MEASURE_WITH_UNIT(LENGTH_MEASURE(25.4),#363);
#365=(
NAMED_UNIT(*)
SI_UNIT($,.STERADIAN.)
SOLID_ANGLE_UNIT()
);
#366=DIMENSIONAL_EXPONENTS(0.,0.,0.,0.,0.,0.,0.);
#367=DIMENSIONAL_EXPONENTS(1.,0.,0.,0.,0.,0.,0.);
#368=(
CONVERSION_BASED_UNIT('degree',#370)
NAMED_UNIT(#366)
PLANE_ANGLE_UNIT()
);
#369=(
NAMED_UNIT(*)
PLANE_ANGLE_UNIT()
SI_UNIT($,.RADIAN.)
);
#370=PLANE_ANGLE_MEASURE_WITH_UNIT(PLANE_ANGLE_MEASURE(0.01745329252),#369);
#371=SHAPE_DEFINITION_REPRESENTATION(#372,#373);
#372=PRODUCT_DEFINITION_SHAPE('',$,#375);
#373=SHAPE_REPRESENTATION('',(#210),#360);
#374=PRODUCT_DEFINITION_CONTEXT('part definition',#379,'design');
#375=PRODUCT_DEFINITION('MH103-1B','MH103-1B',#376,#374);
#376=PRODUCT_DEFINITION_FORMATION('',$,#381);
#377=PRODUCT_RELATED_PRODUCT_CATEGORY('MH103-1B','MH103-1B',(#381));
#378=APPLICATION_PROTOCOL_DEFINITION('international standard',
'automotive_design',2009,#379);
#379=APPLICATION_CONTEXT(
'Core Data for Automotive Mechanical Design Process');
#380=PRODUCT_CONTEXT('part definition',#379,'mechanical');
#381=PRODUCT('MH103-1B','MH103-1B',
'MAGNETIC BASE FOR FLAT SURFACES, 1" DIAM, 1/4-28 INTEGRAL MOUNTING ST
UD',(#380));
#382=PRESENTATION_STYLE_ASSIGNMENT((#386));
#383=PRESENTATION_STYLE_ASSIGNMENT((#387));
#384=PRESENTATION_STYLE_ASSIGNMENT((#388));
#385=PRESENTATION_STYLE_ASSIGNMENT((#389));
#386=SURFACE_STYLE_USAGE(.BOTH.,#390);
#387=SURFACE_STYLE_USAGE(.BOTH.,#391);
#388=SURFACE_STYLE_USAGE(.BOTH.,#392);
#389=SURFACE_STYLE_USAGE(.BOTH.,#393);
#390=SURFACE_SIDE_STYLE('',(#394));
#391=SURFACE_SIDE_STYLE('',(#395));
#392=SURFACE_SIDE_STYLE('',(#396));
#393=SURFACE_SIDE_STYLE('',(#397));
#394=SURFACE_STYLE_FILL_AREA(#398);
#395=SURFACE_STYLE_FILL_AREA(#399);
#396=SURFACE_STYLE_FILL_AREA(#400);
#397=SURFACE_STYLE_FILL_AREA(#401);
#398=FILL_AREA_STYLE('',(#402));
#399=FILL_AREA_STYLE('',(#403));
#400=FILL_AREA_STYLE('',(#404));
#401=FILL_AREA_STYLE('',(#405));
#402=FILL_AREA_STYLE_COLOUR('',#406);
#403=FILL_AREA_STYLE_COLOUR('',#407);
#404=FILL_AREA_STYLE_COLOUR('',#408);
#405=FILL_AREA_STYLE_COLOUR('',#409);
#406=COLOUR_RGB('',0.294117647058824,0.301960784313725,0.294117647058824);
#407=COLOUR_RGB('',0.956862745098039,0.956862745098039,0.956862745098039);
#408=COLOUR_RGB('',0.541176470588235,0.541176470588235,0.545098039215686);
#409=COLOUR_RGB('',0.,0.,0.);
ENDSEC;
END-ISO-10303-21;
